Gitarda Vals - Duman Vals Notaları


Intro

e|----------------------------------|
B|----------------------------------|
G|----------------------------------|
D|---------7--8----------7--/7-6----|
A|--/5-7-8--------/5-7-8------------|
E|----------------------------------|

e|----------------------------------|
B|----------------------------------|
G|------------7--10--/10-9-7-6------|
D|---------7-------------------8-7--|
A|--/5-7-8--------------------------|
E|----------------------------------|


Ara solo

e|----------------------------|
B|----------------------------|
G|----------------------------|
D|---------5-7-8-7-5----------|
A|--/5-7-8-----------8-7-5-4--|
E|----------------------------|


e|----------------------------|
B|----------------------------|
G|---------------6-7-9-6------|
D|---------5-7-8---------8-7--|
A|--/5-7-8--------------------|
E|----------------------------|